How To Read Guitar Tablature - Fundamentals To Reading Guitar Tabs

Guitar Tab Principles

A typical tab team would look something such as this:

e-------------------------------------------------

B-------------------------------------------------

G----..

If you do not know how to read musical notation, but lets say you wish to understand how to jam the newest Drop Out Boys track in your guitar. You will first should try to learn just how to read guitar tablature. If you know any thing, you will likely hate to study about site preview. Do not worry though, because understanding guitar tabs is extremely simple knowing most of the principles. We discovered team by searching Google Books.

Guitar Tab Basics

A standard tablature staff would look something such as this:

e-------------------------------------------------

B-------------------------------------------------

G-------------------------------------------------

D-------------------------------------------------

A-------------------------------------------------

E-------------------------------------------------

When you understand this, you've to see that each line and page represent each sequence on a guitar. Starting from the bottom to the utmost effective they are:

E the 6th string (thickest)

A the 5th string

N the 4th line

G another line

T the next line

e the 1st line (thinnest)

So you will see there are numbers written in to the the team. Each number represents what fret you drive down and on what line. In the following loss example, each number is set up on the A string (5th string) one after another which tells you they should be played one after another. The 0 implies that you pluck the A string open (without moving on the string ),1 move to the 1st fret pluck, 2 move to the second fret, 3 move to the 3rd fret.

E-------------------------------------------------

B-------------------------------------------------

G-------------------------------------------------

D-------------------------------------------------

A-------------------------------------------------

E----0--1--2--3-----------------------------------

Notes are represented with numbers written on top of each and every other.

This is what a C Major chord would seem like:

E------------------------------------------------

B----1-------------------------------------------

G------------------------------------------------

D----2-------------------------------------------

A----3-------------------------------------------

E----0-------------------------------------------

You'll discover that the first string (e), and the 3rd string (G) haven't any figures, this implies that you do not play those strings. Navigating To blues guitar chords probably provides warnings you can tell your cousin. They are in a fundamentally just modest and not played.

The biggest problem to tab is the the truth that you are not in a position to correctly determine just how long each not must be kept for. The easiest way to figure this out is by listening to the specific music that you're attempting to play. This is really the simplest way to make use of tabs.

Find the case to the song you wish to understand

Play that song on a radio, or your pc, or whatever means you've

Break the song into parts, starting with whatever is easiest for you

Slowly commence to put each part together

Though tab does not give you the precise moment, they do give you some idea by spacing the figures out. A good example would seem like this:

E------------------------3-------------------------

B--------------------------3-----------------------

G--------------------------------------------------

D--------------0---------------------0-------------

A------------2--------------------------2----------

E----3-------------------------------------3-------

You'll also run into representations which can be use to represent certain actions.

h - sort on ----2h3----

p - pull off ----3p2----

b - fold sequence up ----5b7----

Page1=46 - launch bend ----5b7r5----

/ - slip up ----5/7----

- slip down ----75----

v - vibrato (sometimes written as ~) ----3v---- or ----3~----

x - silent, hit chain ----000--xxx--000---

Pm side mute. Claude Johnson contains further about why to see this belief.